BIO     VIDEOS         MUSIC & DEMOS   PUBLICATIONS & LESSON MATERIALS       HOME


Working with "Out" tones II
Posted by zylaxis on guitarwar.com - Mar 03, 2005 @ 11:50:16 PM


Using scales with added chromatic tones


As I detailed in a previous article, a common musical question that guitarists often discuss is “How can we use outside chromatic tones logically and effectively?”

 

The following examples demonstrate several more sequence patterns using scale fingerings with chromatic tones added.

ex.1
E ||---------------------------------|----------------------------------|
B ||---------------------------------|---------------------------7-9-10-|
G ||---------------------------------|-----------6-7-9-6-9-7-8-9--------|
D ||---------------------------6-7-9-|-6-9-7-8-9------------------------|
A ||-----------5-7-9-5-9-7-8-9-------|----------------------------------|
E ||-5-9-7-8-9-----------------------|----------------------------------|

E |-------------7-9-10-|-12-9-11-10-9-----------------------------|
B |-7-10-8-9-10--------|--------------12-10-9-12-9-11-10-9--------|
G |--------------------|-----------------------------------11-9-7-|
D |--------------------|------------------------------------------|
A |--------------------|------------------------------------------|
E |--------------------|------------------------------------------|

E |---------------------------------------|-------------------||[repeat]
B |---------------------------------------|-------------------||
G |-11-7-10-9-7---------------------------|-------------------||
D |-------------11-9-7-11-7-10-9-7--------|-------------------||
A |--------------------------------11-9-7-|-11-7-10-9-7-------||
E |---------------------------------------|------------10-9-7-||

ex.2 (groups of 10)
E ||---------------------|---------------------|---------------------|
B ||---------------------|---------------------|---------------------|
G ||---------------------|---------------------|---------6-7-6---6-7-|
D ||---------------------|---------6-7-6---6-7-|-6-7-8-9-------9-----|
A ||---------5-7-5---5-7-|-5-7-8-9-------9-----|---------------------|
E ||-5-7-8-9-------9-----|---------------------|---------------------|

E |---------------------|----------7-9-7----7-9-7-8-9-10-|
B |---------7-9-7---7-9-|-7-8-9-10-------10--------------|
G |-6-7-8-9-------9-----|--------------------------------|
D |---------------------|--------------------------------|
A |---------------------|--------------------------------|
E |---------------------|--------------------------------|

E |-12-11-10-9-10-9----9-10-9-|---------------------------|
B |-----------------12--------|-12-11-10-9-10-9----9-10-9-|
G |---------------------------|-----------------11--------|
D |---------------------------|---------------------------|
A |---------------------------|---------------------------|
E |---------------------------|---------------------------|

E |------------------------|------------------------|------------------------|
B |------------------------|------------------------|------------------------|
G |-11-10-9-7-9-7----7-9-7-|------------------------|------------------------|
D |---------------11-------|-11-10-9-7-9-7----7-9-7-|------------------------|
A |------------------------|---------------11-------|-11-10-9-7-9-7----7-9-7-|
E |------------------------|------------------------|---------------10-------|

E |----------||[repeat]
B |----------||
G |----------||
D |----------||
A |----------||
E |-10-9-8-7-||


ex.3
E ||-------------------------|-------------------------|
B ||-------------------------|-------------------------|
G ||-------------------------|-------------------------|
D ||-------------------------|---------6---------------|
A ||---------5---------------|-5-7-8-9---9-8-7-5-7-8-9-|
E ||-5-7-8-9---9-8-7-5-7-8-9-|-------------------------|

E |-------------------------|-------------------------|
B |-------------------------|---------7---------------|
G |---------6---------------|-6-7-8-9---9-8-7-6-7-8-9-|
D |-6-7-8-9---9-8-7-6-7-8-9-|-------------------------|
A |-------------------------|-------------------------|
E |-------------------------|-------------------------|

E |----------7------------------7-8-9-10-|-12-11-10-9----9-10-11-12-11-10-9-|
B |-7-8-9-10---10-9-8-7-8-9-10-----------|------------12--------------------|
G |--------------------------------------|----------------------------------|
D |--------------------------------------|----------------------------------|
A |--------------------------------------|----------------------------------|
E |--------------------------------------|----------------------------------|

E |-----------------------------------|-------------------------------|
B |--12-11-10-9----9-10-11-12-11-10-9-|-------------------------------|
G |-------------11--------------------|-11-10-9-7----7-9-10-11-10-9-7-|
D |-----------------------------------|-----------11------------------|
A |-----------------------------------|-------------------------------|
E |-----------------------------------|-------------------------------|
                                                                    
                                                                     [repeat]
E |-------------------------------|----------------------------------------||
B |-------------------------------|----------------------------------------||
G |-------------------------------|----------------------------------------||
D |-11-10-9-7----7-9-10-11-10-9-7-|----------------------------------------||
A |-----------11------------------|-11-10-9-7----7-9-10-11-10-9-7----------||
E |-------------------------------|-----------10------------------10-9-8-7-||



 


Guitar Lessons

 @ Jensen Guitar & Music Co.

shop #: 805-687-4027

cell #: 805-455-2292

email: zylaxis@hotmail.com